blank Pure Country Chords blank
Home | Submit Chords | Pure Country Blog  
blank

:: Country Tabs > D > Dixie Chicks > Landslide > Chords/Tab, capo 7

Landslide

Dixie Chicks
Chords/Tab, capo 7

[Printable version]

***PLAY WITH CAPO ON 7th FRET!!!***


Intro: (2 ways to play it)


Option 1: (straight picking progression) [play twice]

  (C)              (G/B)           (Am7)          (G/B)
E-----------------------------------------------------------------
B--------1----------------3---------------1--------------3--------
G------0----0---0-------0----0---0------0---0---0------0---0---0--
D----2--------2-------0--------0------2-------0------0-------0----
A--3----------------2---------------0--------------2--------------
E-----------------------------------------------------------------


Option 2: (adding a few hammer-ons)

(C)               (G/B)            (Am7)          (G/B)
E----------------------------------------------------------------
B--------1----------------3----------3h5-3--------------3--------
G------0----0---0-------0----0---0---------2h4-2p0--2h4---4p2-0--
D----2--------2-------0--------0---------------------------------
A--3----------------2----------------0---------------------------
E----------------------------------------------------------------

   (C)            (G/B)         (Am7)          (G/B)
E----------------------------------------------------------------
B--------1-----3-------3--------------1---------3----------------
G------0-----0-------0---0---0------0---0---0-----5-4h5-4p0------
D----2----0h2------0-------0------2-------0----------------------
A--3-------------2--------------0---------------2----------------
E----------------------------------------------------------------



For the verse, keep repeating this progression all the way to the
chorus:

  (C)              (G/B)           (Am7)          (G/B)
E-----------------------------------------------------------------
B--------1----------------3---------------1--------------3--------
G------0----0---0-------0----0---0------0---0---0------0---0---0--
D----2--------2-------0--------0------2-------0------0-------0----
A--3----------------2---------------0--------------2--------------
E-----------------------------------------------------------------


If you want add this little variation after "Landslide brought me down":

brought me down.... (Am7)         (G/B)
E------------------------------------------
B--------------------------0h1-0-----------
G-----------------------0--0---0---0-------
D---------------------2------------0-------
A-------------------0--------------2-------
E------------------------------------------


(last bar before chorus)

uh uhhh....       uh uhhh...       uhhhhhh...............  well

  (C)              (G/B)           (Am7)          (D)
E----------------------------------------------------------2----
B--------1----------------3---------------1--------------3------
G------0----0---0-------0----0---0------0---0---0------2--------
D----2--------2-------0--------0------2-------0------0----------
A--3----------------2---------------0---------------------------
E---------------------------------------------------------------


Chorus:

I've been...    'fraid of...     changing...
(G)            (D7/F#)          (Em7)
E-----------------------2--------------------------------------
B--------0----------------1---1--------------------------------
G------0---0---0------2-----2----------0--------------0--------
D----0-------0------0----------------0---0---0------0---0---0--
A----------------------------------2-------2------2-------2----
E--3--------------2--------------0--------------0--------------

built...        life...     ...round you
(C)            (G)            (Am7)         (D7)
E---------------------------------------------------2-----
B-------1---------------0------------1------------1----0--
G-----2---2---2-------0---0--------0---0---0----2---------
D---0-------0-------0-------0----2-------2----0-----------
A-3----------------------------0--------------------------
E----------------3----------------------------------------

time...         bolder...       children...
(G)             (D7/F#)          (Em7)
E-----------------------2--------------------------------------
B--------0----------------1---1--------------------------------
G------0---0---0------2-----2----------0--------------0--------
D----0-------0------0----------------0---0---0------0---0---0--
A----------------------------------2-------2------2-------2----
E--3--------------2--------------0--------------0--------------

I'm gettin'...   older...      too....            well...
(C)            (G)            (Am7)         (G/B)
E--------------------------------------------------------
B-------1---------------0------------1-------------3-----
G-----2---2---2-------0---0--------0---0---0-------0-----
D---0-------0-------0-------0----2-------2---------0-----
A-3----------------------------0--------------2----------
E----------------3---------------------------------------


Instrumental: (repeat this bar 3 times)
  (C)              (G/B)           (Am7)          (G/B)
E-----------------------------------------------------------------
B--------1----------------3---------------1--------------3--------
G------0----0---0-------0----0---0------0---0---0------0---0---0--
D----2--------2-------0--------0------2-------0------0-------0----
A--3----------------2---------------0--------------2--------------
E-----------------------------------------------------------------

(going into chorus..)
  (C)              (G/B)           (Am7)          (D)
E----------------------------------------------------------2----
B--------1----------------3---------------1--------------3------
G------0----0---0-------0----0---0------0---0---0------2--------
D----2--------2-------0--------0------2-------0------0----------
A--3----------------2---------------0---------------------------
E---------------------------------------------------------------


REPEAT CHORUS

(repeat last line "I'm getting older too")


VERSE PROGRESSION REPEATS TIL THE END (C  G/B  Am7  G/B)


*For the D7/F# use your thumb to hold down bottom string.



blankPure Country Chords © 2021 -- Privacy Statement -- Blog